СЕРИАЛЫ ОНЛАЙН НА 1SERIAL.TV


Текст песни pink floyd - wish you were here



Pink Floyd - Wish You Were Here - Wish You Were Here
============-


====================-


====================-



(R. Waters)

Rhythm Guitar Transcribed By:
Aja Oki (aja-oki@excite.com)

EADGBe
Chords: G (320033)
Em7 (022033)
A7sus4 (X02033)
C (X32010)
D/F (2X0232)
Am (X02210)

° = Note not played in introduction
* = A-String not muted while going into transition of another chord

Intro / Main Riff:
Em7 G Em7
e |-----------------3--


3-3-------------3-3--


3-3------------------


3-3-3-|
B |-----------------3--


3-3-------------3-3--


3-3------------------


3-3-3-|
G |-----------------0--


0-0---0---------0-0--


0-0------------------


0-0-0-|
D |----------0--2---2--


2--------2--0---0-0--


0-0----------0--2----


2-2---|
A |-----0h2---------2--


---------------------


--------0h2----------


2-----|
E |-3°-----------------


----------------3----


-----3---------------


------|

G Em7 A7sus4
e |----------3-3-3-3---


--------------3-3-3--


---------------3-3-3-


-3-3-3-|
B |----------3-3-3-3---


--------------3-3-3--


---------------3-3-3-


-3-3-3-|
G |-0--------0-0-0-0---


--------------0-0-0--


---------------0-0-0-


-0-0-0-|
D |---2--0---0-0-0-0---


-------0--2---2-2----


--2--0---------2-2-2-


-2-2-2-|
A |--------------------


--0h2---------2------


-------2--0----0-0---


-------|
E |----------3---------


3--------------------


---------------------


-------|

Em7 A7sus4 G*
e |-------------3-3-3--


--------------3-3-3--


----------------3-3--


3-3-3-3-|
B |-------------3-3-3--


--------------3-3-3--


----------------3-3--


3-3-3-3-|
G |-------------0-0-0--


--------------0-0-0--


----------------0-0--


0-0-0-0-|
D |------0--2---2-2----


--2--0--------2-2-2--


----------------0-0--


0-0-0-0-|
A |-0h2---------2------


-------2--0---0-0----


--0h2--0-0------X-X--


X-X-X-X-|
E |--------------------


---------------------


------------3---3-3--


3-3-3-3-|

(So-


lo / Main Riff)

C D/F Am G
So, so you think you can tell heaven from hell? Blue skies from pain?
D/F C Am
Can you get a green field from a cold steel rail? A smile from a vail?

Do you think you can tell?

G C D/F Am
Did they get you to trade your heroes for ghosts? Hot ashes for trees?
G D/F
Hot air for a cool breeze? Cold comfort for change?
C Am G
Did you exchange a walk-on part in the war for a lead role in a cage?

(Solo / Main Riff)

C D/F
How I wish, how I wish you were here.
Am G
We're just two lost souls swimming in a fish bowl year after year,
D/F C
Running over the same old ground, what have we found?
Am G
The same old fears, wish you were here.

(Solo / Main Riff / Outro)

Mp3La.ru - Система поиска музыки и текстов песен

MP3

Музыка в поиске.